Top posters
Lona (27)
 
Admin (8)
 
Krissy (4)
 
matichribar (2)
 

Poll

Kako bi ocenili stran?

75% 75% [ 3 ]
0% 0% [ 0 ]
25% 25% [ 1 ]
0% 0% [ 0 ]
0% 0% [ 0 ]

Skupaj glasov : 4

Latest topics
» Ocena strani
by matichribar Tor Jun 22, 2010 10:08 pm

» Bryan Adams - Summer of '69
by Lona Ned Mar 07, 2010 2:17 pm

» AC/DC - Back in black
by Lona Ned Mar 07, 2010 2:05 pm

» Alexandra Burke feat. Flo Rida - Bad Boys
by Lona Ned Mar 07, 2010 2:03 pm

» Scooter - The Question Is What Is The Question
by Lona Sob Mar 06, 2010 7:53 pm

» Pussycyt Dolls - When I Grow Up
by Lona Sob Mar 06, 2010 7:50 pm

Februar 2018
PonTorSreČetPetSobNed
   1234
567891011
12131415161718
19202122232425
262728    

Calendar Calendar

Statistics
Imamo že 6 prijavljenih uporabnikov
Dobrodošlica! Novopridruženi/-a uporabnik/-ca je noreš100

Uporabniki so skupaj objavili že 41 prispevkov in 40 subjects

ZABLUJENA GENERACIJA-Upornik brez razloga: TABLATURA

Go down

ZABLUJENA GENERACIJA-Upornik brez razloga: TABLATURA

Objavlja  Krissy on Sob Mar 06, 2010 12:55 am

INTRO:

1. kitara
E C#m A B
e|----------------------------------|
B|----------------------------------|
G|----------------------------------| -- 2x palm muted, nato 2x normalno
D|-999999999999999966666666---------|
A|-77777777777777774444444477779999-|
E|-------------------------55557777-|

2. kitara
E C#m A B
e|-----------------------------------------------------|
B|-----------------------------------------------------|
G|-----------------------------------------------------| -- 2x palm muted, nato 2x normalno
D|-----9-7--6--------------------9-7--6-----------6----|
A|-7-7--------7---7--9------------------7---7--9-------|
E|----------------------7----9-9-----------------------|

Nato obe kitari:
E B A E
e|-------------------------|
B|-------------------------|
G|-99999999----------------|
D|-99999999-99977772-------|
A|-77777777-99977772-------|
E|----------77755550-------|



VERZ 1:

Se tebi tudi zdi
Da so nocoj planeti, v posebni liniji
Da je mogoče prav vse
2x
e|-h7p0h5p0h4p0----------------|---------------------------|
B|-------------h7p0h5p0h4p0h2--|--0-7--0-7----0-5--0-5-----|
G|-----------------------------|---------------------------|
D|-----------------------------|---------------------------|
A|-----------------------------|---------------------------|
E|-----------------------------|---------------------------|

Tu ni razloga za upor
Ne ni nobenega ne
Tu ni razloga za preplah
Povej naglas!

C#m E A B
e|----------------------------------|
B|----------------------------------|
G|----------------------------------| -- 2x palm muted
D|-6666666699999999-----------------|
A|-44444444777777777777777799999999-|
E|-----------------5555555577777777-|



REFREN 1:
(Igraj power akorde)

B F# G#m E F#
Midva sva najbolj utrgan par, ki pred sabo ruši vse
B F# G#m E F#
Za naju ni pregrad, klečiva na vrhu barikad
B F# G#m E F#
Midva sva najbolj utrgan par, ki pred sabo ruši vse


PREHOD:

1. kitara
E C#m A B
e|----------------------------------|
B|----------------------------------|
G|-999999999999999966666666---------| -- 2x
D|-99999999999999996666666677779999-|
A|-77777777777777774444444477779999-|
E|-------------------------55557777-|

2. kitara
E C#m A B
e|-----------------------------------------------------|
B|-----------------------------------------------------|
G|-----------------------------------------------------| -- 2x
D|-----9-7--6--------------------9-7--6-----------6----|
A|-7-7--------7---7--9------------------7---7--9-------|
E|----------------------7----9-9-----------------------|



VERZ 2:

Kot plus in minus sva
Ne naprej in ne nazaj se ne ozirava
Vsak trenutek izpijeva

e|---------------------------|
B|--0-7--0-7----0-5--0-5-----|
G|---------------------------| -- 2x
D|---------------------------|
A|---------------------------|
E|---------------------------|

Se prepočas vrti ta svet
Rada bi na drug planet
Tu ni razloga za upor
Povej naglas!
2x
e|----------|-------------------------|
B|----------|-------------------------|
G|----------|-------------------------|
D|----------|-------------------------|
A|-77779999-|-4--6--8-----------------|
E|-55557777-|--------------5----7-----|



REFREN 2:
(Igraj power akorde)

B F# G#m E F#
Midva sva najbolj utrgan par, ki pred sabo ruši vse
B F# G#m E F#
Za naju ni pregrad, klečiva na vrhu barikad
B F# G#m E F#
Midva sva najbolj utrgan par, ki pred sabo ruši vse
B F# G#m E F#
Za naju ni pregrad, klečiva na vrhu barikad

B
Se tebi tudi zdi
F#
Se tebi tudi zdi da sva
G#m E F#
Upornika brez razloga

Prva kitara:
5x 3x
e|---------------|---------------|
B|---------------|---------------|
G|---------------|---------------|
D|-666---22--44--|-888---44--66--|
A|-666---22--44--|-888---44--66--|
E|-444---00--22--|-666---22--44--|

Druga kitara:
4x 3x
e|--------------------|--------------------|
B|---44444444--55--22-|---66666666--77--44-|
G|---44444444--44--44-|---66666666--66--66-|
D|--------------------|--------------------|
A|--------------------|--------------------|
E|--------------------|--------------------|

e|---------------------------------|--------------------------------------------|
B|---------------------------------|---------------------------------4/9--------|
G|-------------------10----11--8\--|-10--8/10-11-10-8--6--10-8-8----------------|
D|-888------------8----------------|--------------------------------------------|
A|-888---44446666----------9---6\--|-8---6/8--9--8--6--4--8--6-6----------------|
E|-666---22224444------------------|--------------------------------------------|



REFREN 3:
(Igraj power akorde)

B F# G#m E F#
Midva sva najbolj utrgan par, ki pred sabo ruši vse
B F# G#m E F#
Za naju ni pregrad, klečiva na vrhu barikad
B F# G#m E F#
Midva sva najbolj utrgan par, ki pred sabo ruši vse
B F# G#m E F# B
Za naju ni pregrad, klečiva na vrhu barikad




####################################################################################################

TABLATURA ZA BAS KITARO:

INTRO:
4x
G|----------|----------------------------------|------------------|
D|----------|----------------------------------|------------------|
A|----------|-777777777777777744444444---------|-77777777---------|
E|-55557777-|-------------------------55557777-|----------7775555-|

VERZ 1:
G|------------------------------------------------------------------|
D|------------------------------------------------------------------|
A|------------------------------------------------------------------|
E|-0000000077777777555555555555777700000000777777775555555577777777-|

G|----------------------------------------------------------------|
D|----------------------------------------------------------------|
A|-4444444477777777----------------4444444477777777---------------|
E|-----------------5555555577777777----------------55555557---77\-|

REFREN 1:
G|----------------------------------|
D|----------------------------------|
A|-22222222-------------------------|
E|---------222222224444444400002222-|

Prehod:
G|------------------------------------------|
D|------------------------------------------|
A|-----------------7777777744444444---------|
E|-0000000077777777----------------55557777-|

VERZ 2:
G|------------------------------------------------------------------|
D|------------------------------------------------------------------|
A|-------------------------------------------------44444444---------|
E|-000000007777777755555555555577770000000077777777--------55557777-|

G|----------------------------------------------------------------|
D|----------------------------------------------------------------|
A|-4444444477777777----------------4444444477777777---------------|
E|-----------------5555555577777777----------------55555557---77\-|

REFREN 2:
G|----------------------------------|
D|----------------------------------|
A|-22222222-------------------------|
E|---------222222224444444400002222-|


BRIDGE:
(se tebi tudi zdi...)
G|---------------------------------------|
D|---------------------------------------|
A|-22222222------------------------------|
E|---------22222222444-----00--22--444---|

5x
G|------------------|---------------------------------1111111111111------|
D|------------------|----------------------------------------------------|
A|-11111111---------|-44444444--------2222222222222222-------------------|
E|---------22224444-|---------22224444-----------------------------------|

REFREN 3:
G|----------------------------------|-------------|
D|----------------------------------|-------------|
A|-22222222-------------------------|-2-----------|
E|---------222222224444444400002222-|-------------|

Krissy
Začetnik

Female Število prispevkov : 4
Datum registracije : 04/03/2010
Starost : 23

Poglej uporabnikov profil

Nazaj na vrh Go down

Nazaj na vrh

- Similar topics

 
Permissions in this forum:
Ne, ne moreš odgovarjati na teme v tem forumu